ISO-10303-21;
HEADER;
/* Generated by software containing ST-Developer
 * from STEP Tools, Inc. (www.steptools.com) 
 */

FILE_DESCRIPTION(
/* description */ (
'H2O-GATE BREATHER, PUSTEFILTER MED FUKTSPERRE, 3 MY  INV. 1 1/2"-16 U
N'),
/* implementation_level */ '2;1');

FILE_NAME(
/* name */ 'C:\\VaultWork\\Designs\\ASM\\Servi Selection\\BR110.stp',
/* time_stamp */ '2019-12-06T12:52:11+01:00',
/* author */ ('asm'),
/* organization */ (''),
/* preprocessor_version */ 'ST-DEVELOPER v16.5',
/* originating_system */ 'Autodesk Inventor 2017',
/* authorisation */ '');

FILE_SCHEMA (('AUTOMOTIVE_DESIGN { 1 0 10303 214 3 1 1 }'));
ENDSEC;

DATA;
#10=MECHANICAL_DESIGN_GEOMETRIC_PRESENTATION_REPRESENTATION('',(#13),#345);
#11=SHAPE_REPRESENTATION_RELATIONSHIP('SRR','None',#354,#12);
#12=ADVANCED_BREP_SHAPE_REPRESENTATION('',(#14),#344);
#13=STYLED_ITEM('',(#363),#14);
#14=MANIFOLD_SOLID_BREP('Solid1',#187);
#15=CONICAL_SURFACE('',#207,62.8494167931702,1.38350639959542);
#16=CONICAL_SURFACE('',#212,64.85,1.38350639959541);
#17=TOROIDAL_SURFACE('',#199,33.4771966523284,10.);
#18=TOROIDAL_SURFACE('',#204,43.4771966523284,18.);
#19=TOROIDAL_SURFACE('',#210,43.4771966523284,20.);
#20=PLANE('',#198);
#21=PLANE('',#203);
#22=PLANE('',#209);
#23=PLANE('',#214);
#24=PLANE('',#219);
#25=PLANE('',#225);
#26=PLANE('',#226);
#27=FACE_BOUND('',#58,.T.);
#28=FACE_BOUND('',#61,.T.);
#29=FACE_BOUND('',#63,.T.);
#30=FACE_BOUND('',#65,.T.);
#31=FACE_BOUND('',#67,.T.);
#32=FACE_BOUND('',#70,.T.);
#33=FACE_BOUND('',#72,.T.);
#34=FACE_BOUND('',#74,.T.);
#35=FACE_BOUND('',#76,.T.);
#36=FACE_BOUND('',#78,.T.);
#37=FACE_BOUND('',#80,.T.);
#38=FACE_BOUND('',#82,.T.);
#39=FACE_BOUND('',#84,.T.);
#40=FACE_BOUND('',#86,.T.);
#41=FACE_OUTER_BOUND('',#57,.T.);
#42=FACE_OUTER_BOUND('',#59,.T.);
#43=FACE_OUTER_BOUND('',#60,.T.);
#44=FACE_OUTER_BOUND('',#62,.T.);
#45=FACE_OUTER_BOUND('',#64,.T.);
#46=FACE_OUTER_BOUND('',#66,.T.);
#47=FACE_OUTER_BOUND('',#68,.T.);
#48=FACE_OUTER_BOUND('',#69,.T.);
#49=FACE_OUTER_BOUND('',#71,.T.);
#50=FACE_OUTER_BOUND('',#73,.T.);
#51=FACE_OUTER_BOUND('',#75,.T.);
#52=FACE_OUTER_BOUND('',#77,.T.);
#53=FACE_OUTER_BOUND('',#79,.T.);
#54=FACE_OUTER_BOUND('',#81,.T.);
#55=FACE_OUTER_BOUND('',#83,.T.);
#56=FACE_OUTER_BOUND('',#85,.T.);
#57=EDGE_LOOP('',(#135));
#58=EDGE_LOOP('',(#136));
#59=EDGE_LOOP('',(#137));
#60=EDGE_LOOP('',(#138));
#61=EDGE_LOOP('',(#139,#140));
#62=EDGE_LOOP('',(#141));
#63=EDGE_LOOP('',(#142));
#64=EDGE_LOOP('',(#143));
#65=EDGE_LOOP('',(#144));
#66=EDGE_LOOP('',(#145));
#67=EDGE_LOOP('',(#146));
#68=EDGE_LOOP('',(#147));
#69=EDGE_LOOP('',(#148,#149));
#70=EDGE_LOOP('',(#150));
#71=EDGE_LOOP('',(#151));
#72=EDGE_LOOP('',(#152));
#73=EDGE_LOOP('',(#153));
#74=EDGE_LOOP('',(#154));
#75=EDGE_LOOP('',(#155));
#76=EDGE_LOOP('',(#156));
#77=EDGE_LOOP('',(#157));
#78=EDGE_LOOP('',(#158));
#79=EDGE_LOOP('',(#159));
#80=EDGE_LOOP('',(#160));
#81=EDGE_LOOP('',(#161));
#82=EDGE_LOOP('',(#162));
#83=EDGE_LOOP('',(#163));
#84=EDGE_LOOP('',(#164));
#85=EDGE_LOOP('',(#165));
#86=EDGE_LOOP('',(#166));
#87=CIRCLE('',#196,10.);
#88=CIRCLE('',#197,10.);
#89=CIRCLE('',#200,33.4771966523284);
#90=CIRCLE('',#201,43.4771966523284);
#91=CIRCLE('',#202,43.4771966523284);
#92=CIRCLE('',#205,61.4719493209997);
#93=CIRCLE('',#206,43.4771966523284);
#94=CIRCLE('',#208,64.6511139211075);
#95=CIRCLE('',#211,63.4713662841854);
#96=CIRCLE('',#213,66.7);
#97=CIRCLE('',#215,30.);
#98=CIRCLE('',#217,20.);
#99=CIRCLE('',#218,20.);
#100=CIRCLE('',#221,18.1865);
#101=CIRCLE('',#222,18.1865);
#102=CIRCLE('',#224,30.);
#103=VERTEX_POINT('',#295);
#104=VERTEX_POINT('',#297);
#105=VERTEX_POINT('',#301);
#106=VERTEX_POINT('',#303);
#107=VERTEX_POINT('',#304);
#108=VERTEX_POINT('',#309);
#109=VERTEX_POINT('',#311);
#110=VERTEX_POINT('',#314);
#111=VERTEX_POINT('',#318);
#112=VERTEX_POINT('',#321);
#113=VERTEX_POINT('',#324);
#114=VERTEX_POINT('',#327);
#115=VERTEX_POINT('',#329);
#116=VERTEX_POINT('',#333);
#117=VERTEX_POINT('',#335);
#118=VERTEX_POINT('',#338);
#119=EDGE_CURVE('',#103,#103,#87,.T.);
#120=EDGE_CURVE('',#104,#104,#88,.T.);
#121=EDGE_CURVE('',#105,#105,#89,.T.);
#122=EDGE_CURVE('',#106,#107,#90,.T.);
#123=EDGE_CURVE('',#107,#106,#91,.T.);
#124=EDGE_CURVE('',#108,#108,#92,.T.);
#125=EDGE_CURVE('',#109,#109,#93,.T.);
#126=EDGE_CURVE('',#110,#110,#94,.T.);
#127=EDGE_CURVE('',#111,#111,#95,.T.);
#128=EDGE_CURVE('',#112,#112,#96,.T.);
#129=EDGE_CURVE('',#113,#113,#97,.T.);
#130=EDGE_CURVE('',#114,#114,#98,.T.);
#131=EDGE_CURVE('',#115,#115,#99,.T.);
#132=EDGE_CURVE('',#116,#116,#100,.T.);
#133=EDGE_CURVE('',#117,#117,#101,.T.);
#134=EDGE_CURVE('',#118,#118,#102,.T.);
#135=ORIENTED_EDGE('',*,*,#119,.T.);
#136=ORIENTED_EDGE('',*,*,#120,.F.);
#137=ORIENTED_EDGE('',*,*,#119,.F.);
#138=ORIENTED_EDGE('',*,*,#121,.T.);
#139=ORIENTED_EDGE('',*,*,#122,.F.);
#140=ORIENTED_EDGE('',*,*,#123,.F.);
#141=ORIENTED_EDGE('',*,*,#121,.F.);
#142=ORIENTED_EDGE('',*,*,#120,.T.);
#143=ORIENTED_EDGE('',*,*,#124,.T.);
#144=ORIENTED_EDGE('',*,*,#125,.T.);
#145=ORIENTED_EDGE('',*,*,#126,.T.);
#146=ORIENTED_EDGE('',*,*,#124,.F.);
#147=ORIENTED_EDGE('',*,*,#125,.F.);
#148=ORIENTED_EDGE('',*,*,#122,.T.);
#149=ORIENTED_EDGE('',*,*,#123,.T.);
#150=ORIENTED_EDGE('',*,*,#127,.T.);
#151=ORIENTED_EDGE('',*,*,#128,.F.);
#152=ORIENTED_EDGE('',*,*,#127,.F.);
#153=ORIENTED_EDGE('',*,*,#128,.T.);
#154=ORIENTED_EDGE('',*,*,#129,.F.);
#155=ORIENTED_EDGE('',*,*,#130,.F.);
#156=ORIENTED_EDGE('',*,*,#131,.F.);
#157=ORIENTED_EDGE('',*,*,#126,.F.);
#158=ORIENTED_EDGE('',*,*,#130,.T.);
#159=ORIENTED_EDGE('',*,*,#132,.F.);
#160=ORIENTED_EDGE('',*,*,#133,.F.);
#161=ORIENTED_EDGE('',*,*,#129,.T.);
#162=ORIENTED_EDGE('',*,*,#134,.F.);
#163=ORIENTED_EDGE('',*,*,#131,.T.);
#164=ORIENTED_EDGE('',*,*,#133,.T.);
#165=ORIENTED_EDGE('',*,*,#134,.T.);
#166=ORIENTED_EDGE('',*,*,#132,.T.);
#167=CYLINDRICAL_SURFACE('',#195,10.);
#168=CYLINDRICAL_SURFACE('',#216,20.);
#169=CYLINDRICAL_SURFACE('',#220,18.1865);
#170=CYLINDRICAL_SURFACE('',#223,30.);
#171=ADVANCED_FACE('',(#41,#27),#167,.T.);
#172=ADVANCED_FACE('',(#42),#20,.F.);
#173=ADVANCED_FACE('',(#43,#28),#17,.T.);
#174=ADVANCED_FACE('',(#44,#29),#21,.F.);
#175=ADVANCED_FACE('',(#45,#30),#18,.F.);
#176=ADVANCED_FACE('',(#46,#31),#15,.F.);
#177=ADVANCED_FACE('',(#47),#22,.T.);
#178=ADVANCED_FACE('',(#48,#32),#19,.T.);
#179=ADVANCED_FACE('',(#49,#33),#16,.T.);
#180=ADVANCED_FACE('',(#50,#34),#23,.T.);
#181=ADVANCED_FACE('',(#51,#35),#168,.F.);
#182=ADVANCED_FACE('',(#52,#36),#24,.T.);
#183=ADVANCED_FACE('',(#53,#37),#169,.F.);
#184=ADVANCED_FACE('',(#54,#38),#170,.T.);
#185=ADVANCED_FACE('',(#55,#39),#25,.F.);
#186=ADVANCED_FACE('',(#56,#40),#26,.T.);
#187=CLOSED_SHELL('',(#171,#172,#173,#174,#175,#176,#177,#178,#179,#180,
#181,#182,#183,#184,#185,#186));
#188=DATE_TIME_ROLE('creation_date');
#189=APPLIED_DATE_AND_TIME_ASSIGNMENT(#190,#188,(#356));
#190=DATE_AND_TIME(#191,#192);
#191=CALENDAR_DATE(2003,4,12);
#192=LOCAL_TIME(11,44,20.,#193);
#193=COORDINATED_UNIVERSAL_TIME_OFFSET(0,0,.BEHIND.);
#194=AXIS2_PLACEMENT_3D('placement',#293,#227,#228);
#195=AXIS2_PLACEMENT_3D('',#294,#229,#230);
#196=AXIS2_PLACEMENT_3D('',#296,#231,#232);
#197=AXIS2_PLACEMENT_3D('',#298,#233,#234);
#198=AXIS2_PLACEMENT_3D('',#299,#235,#236);
#199=AXIS2_PLACEMENT_3D('',#300,#237,#238);
#200=AXIS2_PLACEMENT_3D('',#302,#239,#240);
#201=AXIS2_PLACEMENT_3D('',#305,#241,#242);
#202=AXIS2_PLACEMENT_3D('',#306,#243,#244);
#203=AXIS2_PLACEMENT_3D('',#307,#245,#246);
#204=AXIS2_PLACEMENT_3D('',#308,#247,#248);
#205=AXIS2_PLACEMENT_3D('',#310,#249,#250);
#206=AXIS2_PLACEMENT_3D('',#312,#251,#252);
#207=AXIS2_PLACEMENT_3D('',#313,#253,#254);
#208=AXIS2_PLACEMENT_3D('',#315,#255,#256);
#209=AXIS2_PLACEMENT_3D('',#316,#257,#258);
#210=AXIS2_PLACEMENT_3D('',#317,#259,#260);
#211=AXIS2_PLACEMENT_3D('',#319,#261,#262);
#212=AXIS2_PLACEMENT_3D('',#320,#263,#264);
#213=AXIS2_PLACEMENT_3D('',#322,#265,#266);
#214=AXIS2_PLACEMENT_3D('',#323,#267,#268);
#215=AXIS2_PLACEMENT_3D('',#325,#269,#270);
#216=AXIS2_PLACEMENT_3D('',#326,#271,#272);
#217=AXIS2_PLACEMENT_3D('',#328,#273,#274);
#218=AXIS2_PLACEMENT_3D('',#330,#275,#276);
#219=AXIS2_PLACEMENT_3D('',#331,#277,#278);
#220=AXIS2_PLACEMENT_3D('',#332,#279,#280);
#221=AXIS2_PLACEMENT_3D('',#334,#281,#282);
#222=AXIS2_PLACEMENT_3D('',#336,#283,#284);
#223=AXIS2_PLACEMENT_3D('',#337,#285,#286);
#224=AXIS2_PLACEMENT_3D('',#339,#287,#288);
#225=AXIS2_PLACEMENT_3D('',#340,#289,#290);
#226=AXIS2_PLACEMENT_3D('',#341,#291,#292);
#227=DIRECTION('axis',(0.,0.,1.));
#228=DIRECTION('refdir',(1.,0.,0.));
#229=DIRECTION('center_axis',(0.,-3.06151588455595E-16,1.));
#230=DIRECTION('ref_axis',(-1.,0.,0.));
#231=DIRECTION('center_axis',(0.,3.06151588455594E-16,-1.));
#232=DIRECTION('ref_axis',(-1.,0.,0.));
#233=DIRECTION('center_axis',(0.,3.06151588455594E-16,-1.));
#234=DIRECTION('ref_axis',(-1.,0.,0.));
#235=DIRECTION('center_axis',(0.,3.06151588455594E-16,-1.));
#236=DIRECTION('ref_axis',(-1.,0.,0.));
#237=DIRECTION('center_axis',(0.,3.06151588455594E-16,-1.));
#238=DIRECTION('ref_axis',(-1.,0.,0.));
#239=DIRECTION('center_axis',(0.,3.06151588455594E-16,-1.));
#240=DIRECTION('ref_axis',(-1.,1.13401530854388E-32,3.4718058804367E-48));
#241=DIRECTION('center_axis',(0.,3.06151588455594E-16,-1.));
#242=DIRECTION('ref_axis',(1.22460635382238E-16,-1.,-3.06151588455594E-16));
#243=DIRECTION('center_axis',(0.,3.06151588455594E-16,-1.));
#244=DIRECTION('ref_axis',(1.22460635382238E-16,-1.,-3.06151588455594E-16));
#245=DIRECTION('center_axis',(0.,3.06151588455594E-16,-1.));
#246=DIRECTION('ref_axis',(-1.,0.,0.));
#247=DIRECTION('center_axis',(0.,3.06151588455594E-16,-1.));
#248=DIRECTION('ref_axis',(-1.,0.,0.));
#249=DIRECTION('center_axis',(-6.00683008454041E-32,5.77940624633298E-16,
-1.));
#250=DIRECTION('ref_axis',(1.60410747083533E-32,-1.,-5.77940624633298E-16));
#251=DIRECTION('center_axis',(0.,-3.06151588455594E-16,1.));
#252=DIRECTION('ref_axis',(1.22460635382238E-16,-1.,-3.06151588455594E-16));
#253=DIRECTION('center_axis',(0.,3.06151588455594E-16,-1.));
#254=DIRECTION('ref_axis',(0.,1.,3.99824871535977E-16));
#255=DIRECTION('center_axis',(0.,3.06151588455594E-16,-1.));
#256=DIRECTION('ref_axis',(0.,1.,3.99824871535977E-16));
#257=DIRECTION('center_axis',(0.,3.06151588455594E-16,-1.));
#258=DIRECTION('ref_axis',(-1.,0.,0.));
#259=DIRECTION('center_axis',(0.,3.06151588455594E-16,-1.));
#260=DIRECTION('ref_axis',(-1.,0.,0.));
#261=DIRECTION('center_axis',(2.96546829650437E-32,-2.79867433678176E-16,
1.));
#262=DIRECTION('ref_axis',(0.,-1.,-2.79867433678176E-16));
#263=DIRECTION('center_axis',(0.,3.06151588455594E-16,-1.));
#264=DIRECTION('ref_axis',(0.,1.,3.99824871535977E-16));
#265=DIRECTION('center_axis',(0.,3.06151588455594E-16,-1.));
#266=DIRECTION('ref_axis',(0.,1.,3.99824871535977E-16));
#267=DIRECTION('center_axis',(0.,3.06151588455594E-16,-1.));
#268=DIRECTION('ref_axis',(-1.,0.,0.));
#269=DIRECTION('center_axis',(0.,0.,-1.));
#270=DIRECTION('ref_axis',(-1.,0.,0.));
#271=DIRECTION('center_axis',(0.,3.06151588455594E-16,-1.));
#272=DIRECTION('ref_axis',(0.,1.,3.99824871535977E-16));
#273=DIRECTION('center_axis',(0.,3.06151588455594E-16,-1.));
#274=DIRECTION('ref_axis',(0.,1.,3.99824871535977E-16));
#275=DIRECTION('center_axis',(0.,0.,1.));
#276=DIRECTION('ref_axis',(0.,1.,3.99824871535977E-16));
#277=DIRECTION('center_axis',(0.,-3.06151588455594E-16,1.));
#278=DIRECTION('ref_axis',(1.,0.,0.));
#279=DIRECTION('center_axis',(0.,0.,1.));
#280=DIRECTION('ref_axis',(1.,0.,0.));
#281=DIRECTION('center_axis',(0.,0.,1.));
#282=DIRECTION('ref_axis',(1.,0.,0.));
#283=DIRECTION('center_axis',(0.,0.,-1.));
#284=DIRECTION('ref_axis',(1.,0.,0.));
#285=DIRECTION('center_axis',(0.,0.,1.));
#286=DIRECTION('ref_axis',(-1.,0.,0.));
#287=DIRECTION('center_axis',(0.,0.,-1.));
#288=DIRECTION('ref_axis',(-1.,0.,0.));
#289=DIRECTION('center_axis',(0.,0.,-1.));
#290=DIRECTION('ref_axis',(-1.,0.,0.));
#291=DIRECTION('center_axis',(0.,0.,-1.));
#292=DIRECTION('ref_axis',(-1.,0.,0.));
#293=CARTESIAN_POINT('',(0.,0.,0.));
#294=CARTESIAN_POINT('Origin',(0.,-4.9963939235953E-14,175.2));
#295=CARTESIAN_POINT('',(10.,-5.14946971782309E-14,184.2));
#296=CARTESIAN_POINT('Origin',(0.,-5.27193035320533E-14,184.2));
#297=CARTESIAN_POINT('',(10.,-4.87393328821306E-14,175.2));
#298=CARTESIAN_POINT('Origin',(0.,-4.9963939235953E-14,175.2));
#299=CARTESIAN_POINT('Origin',(0.,-5.27193035320533E-14,184.2));
#300=CARTESIAN_POINT('Origin',(0.,-4.6902423351397E-14,165.2));
#301=CARTESIAN_POINT('',(33.4771966523284,-5.40635780088132E-14,175.2));
#302=CARTESIAN_POINT('Origin',(0.,-4.9963939235953E-14,175.2));
#303=CARTESIAN_POINT('',(0.,43.4771966523284,165.2));
#304=CARTESIAN_POINT('',(43.4771966523284,-5.22266684780797E-14,165.2));
#305=CARTESIAN_POINT('Origin',(0.,-4.6902423351397E-14,165.2));
#306=CARTESIAN_POINT('Origin',(0.,-4.6902423351397E-14,165.2));
#307=CARTESIAN_POINT('Origin',(0.,-4.9963939235953E-14,175.2));
#308=CARTESIAN_POINT('Origin',(0.,-4.07793915822852E-14,145.2));
#309=CARTESIAN_POINT('',(-1.97215226305253E-30,61.4719493209996,145.634599117977));
#310=CARTESIAN_POINT('Origin',(-7.52789397203434E-15,-4.44089209850063E-14,
145.634599117977));
#311=CARTESIAN_POINT('',(-1.06484902533653E-14,43.4771966523283,163.2));
#312=CARTESIAN_POINT('Origin',(0.,-4.62901201744859E-14,163.2));
#313=CARTESIAN_POINT('Origin',(0.,-2.34512116756985E-14,88.6));
#314=CARTESIAN_POINT('',(0.,64.6511139211075,14.));
#315=CARTESIAN_POINT('Origin',(0.,-6.12303176911184E-16,14.));
#316=CARTESIAN_POINT('Origin',(0.,30.5238598326164,163.2));
#317=CARTESIAN_POINT('Origin',(0.,-4.07793915822851E-14,145.2));
#318=CARTESIAN_POINT('',(-1.55454876874802E-14,63.4713662841854,145.682887908863));
#319=CARTESIAN_POINT('Origin',(-7.77274384374009E-15,-4.44089209850063E-14,
145.682887908863));
#320=CARTESIAN_POINT('Origin',(0.,-2.34512116756985E-14,88.6));
#321=CARTESIAN_POINT('',(0.,66.7,12.));
#322=CARTESIAN_POINT('Origin',(0.,5.98280266561097E-30,12.));
#323=CARTESIAN_POINT('Origin',(0.,43.35,12.));
#324=CARTESIAN_POINT('',(30.,3.67381906146713E-15,12.));
#325=CARTESIAN_POINT('Origin',(0.,0.,12.));
#326=CARTESIAN_POINT('Origin',(0.,-3.06151588455593E-16,13.));
#327=CARTESIAN_POINT('',(0.,20.,14.));
#328=CARTESIAN_POINT('Origin',(0.,-6.12303176911187E-16,14.));
#329=CARTESIAN_POINT('',(0.,20.,12.));
#330=CARTESIAN_POINT('Origin',(0.,-4.31408307542741E-31,12.));
#331=CARTESIAN_POINT('Origin',(0.,42.3255569605538,14.));
#332=CARTESIAN_POINT('Origin',(0.,0.,2.));
#333=CARTESIAN_POINT('',(-18.1865,-2.22713034537907E-15,0.));
#334=CARTESIAN_POINT('Origin',(0.,0.,0.));
#335=CARTESIAN_POINT('',(18.1865,0.,12.));
#336=CARTESIAN_POINT('Origin',(0.,0.,12.));
#337=CARTESIAN_POINT('Origin',(0.,0.,0.));
#338=CARTESIAN_POINT('',(30.,3.67381906146713E-15,0.));
#339=CARTESIAN_POINT('Origin',(0.,0.,0.));
#340=CARTESIAN_POINT('Origin',(0.,0.,12.));
#341=CARTESIAN_POINT('Origin',(0.,0.,0.));
#342=UNCERTAINTY_MEASURE_WITH_UNIT(LENGTH_MEASURE(0.01),#346,
'DISTANCE_ACCURACY_VALUE',
'Maximum model space distance between geometric entities at asserted c
onnectivities');
#343=UNCERTAINTY_MEASURE_WITH_UNIT(LENGTH_MEASURE(1.E-6),#346,
'DISTANCE_ACCURACY_VALUE',
'Maximum model space distance between geometric entities at asserted c
onnectivities');
#344=(
GEOMETRIC_REPRESENTATION_CONTEXT(3)
GLOBAL_UNCERTAINTY_ASSIGNED_CONTEXT((#342))
GLOBAL_UNIT_ASSIGNED_CONTEXT((#346,#349,#347))
REPRESENTATION_CONTEXT('','3D')
);
#345=(
GEOMETRIC_REPRESENTATION_CONTEXT(3)
GLOBAL_UNCERTAINTY_ASSIGNED_CONTEXT((#343))
GLOBAL_UNIT_ASSIGNED_CONTEXT((#346,#349,#347))
REPRESENTATION_CONTEXT('','3D')
);
#346=(
LENGTH_UNIT()
NAMED_UNIT(*)
SI_UNIT(.MILLI.,.METRE.)
);
#347=(
NAMED_UNIT(*)
SI_UNIT($,.STERADIAN.)
SOLID_ANGLE_UNIT()
);
#348=DIMENSIONAL_EXPONENTS(0.,0.,0.,0.,0.,0.,0.);
#349=(
CONVERSION_BASED_UNIT('degree',#351)
NAMED_UNIT(#348)
PLANE_ANGLE_UNIT()
);
#350=(
NAMED_UNIT(*)
PLANE_ANGLE_UNIT()
SI_UNIT($,.RADIAN.)
);
#351=PLANE_ANGLE_MEASURE_WITH_UNIT(PLANE_ANGLE_MEASURE(0.01745329252),#350);
#352=SHAPE_DEFINITION_REPRESENTATION(#353,#354);
#353=PRODUCT_DEFINITION_SHAPE('',$,#356);
#354=SHAPE_REPRESENTATION('',(#194),#344);
#355=PRODUCT_DEFINITION_CONTEXT('part definition',#360,'design');
#356=PRODUCT_DEFINITION('BR110-Pustefilter','BR110-Pustefilter',#357,#355);
#357=PRODUCT_DEFINITION_FORMATION('00',$,#362);
#358=PRODUCT_RELATED_PRODUCT_CATEGORY('BR110-Pustefilter',
'BR110-Pustefilter',(#362));
#359=APPLICATION_PROTOCOL_DEFINITION('international standard',
'automotive_design',2009,#360);
#360=APPLICATION_CONTEXT(
'Core Data for Automotive Mechanical Design Process');
#361=PRODUCT_CONTEXT('part definition',#360,'mechanical');
#362=PRODUCT('BR110-Pustefilter','BR110-Pustefilter',
'H2O-GATE BREATHER, PUSTEFILTER MED FUKTSPERRE, 3 MY  INV. 1 1/2"-16 U
N',(#361));
#363=PRESENTATION_STYLE_ASSIGNMENT((#364));
#364=SURFACE_STYLE_USAGE(.BOTH.,#365);
#365=SURFACE_SIDE_STYLE('',(#366));
#366=SURFACE_STYLE_FILL_AREA(#367);
#367=FILL_AREA_STYLE('',(#368));
#368=FILL_AREA_STYLE_COLOUR('',#369);
#369=COLOUR_RGB('',0.0196078431372549,0.0196078431372549,0.0196078431372549);
ENDSEC;
END-ISO-10303-21;
